ISO-10303-21;
HEADER;
FILE_DESCRIPTION (( 'STEP AP203' ),
    '1' );
FILE_NAME ('QB-CTZHWP-25.4-894-M.STEP',
    '2020-12-24T01:37:05',
    ( '' ),
    ( '' ),
    'SwSTEP 2.0',
    'SolidWorks 2020',
    '' );
FILE_SCHEMA (( 'CONFIG_CONTROL_DESIGN' ));
ENDSEC;

DATA;
#1 = CC_DESIGN_SECURITY_CLASSIFICATION ( #16, ( #141 ) ) ;
#2 = ORIENTED_EDGE ( 'NONE', *, *, #140, .F. ) ;
#3 = CARTESIAN_POINT ( 'NONE',  ( -3.000000000000000888, 12.69999999999999929, 0.000000000000000000 ) ) ;
#4 = FACE_OUTER_BOUND ( 'NONE', #115, .T. ) ;
#5 = PERSON_AND_ORGANIZATION ( #150, #165 ) ;
#6 = CARTESIAN_POINT ( 'NONE',  ( -3.000000000000000000, 0.000000000000000000, 0.000000000000000000 ) ) ;
#7 = AXIS2_PLACEMENT_3D ( 'NONE', #113, #102, #35 ) ;
#8 = ORIENTED_EDGE ( 'NONE', *, *, #160, .T. ) ;
#9 = PERSON_AND_ORGANIZATION ( #150, #165 ) ;
#10 = COORDINATED_UNIVERSAL_TIME_OFFSET ( 8, 0, .AHEAD. ) ;
#11 = CALENDAR_DATE ( 2020, 24, 12 ) ;
#12 = CALENDAR_DATE ( 2020, 24, 12 ) ;
#13 = APPROVAL_PERSON_ORGANIZATION ( #81, #100, #109 ) ;
#14 = DATE_AND_TIME ( #68, #46 ) ;
#15 = CC_DESIGN_DATE_AND_TIME_ASSIGNMENT ( #147, #161, ( #16 ) ) ;
#16 = SECURITY_CLASSIFICATION ( '', '', #94 ) ;
#17 = MANIFOLD_SOLID_BREP ( 'Ðý×', #127 ) ;
#18 = ADVANCED_FACE ( 'NONE', ( #21 ), #63, .F. ) ;
#19 = AXIS2_PLACEMENT_3D ( 'NONE', #40, #37, #117 ) ;
#20 = APPROVAL ( #41, 'UNSPECIFIED' ) ;
#21 = FACE_OUTER_BOUND ( 'NONE', #166, .T. ) ;
#22 = EDGE_LOOP ( 'NONE', ( #167, #170, #60, #120 ) ) ;
#23 = CARTESIAN_POINT ( 'NONE',  ( 3.000000000000000888, 12.69999999999999929, 0.000000000000000000 ) ) ;
#24 = DIRECTION ( 'NONE',  ( 0.000000000000000000, 0.000000000000000000, -1.000000000000000000 ) ) ;
#25 = CARTESIAN_POINT ( 'NONE',  ( 3.000000000000000000, 1.836970198721029589E-15, -15.00000000000000000 ) ) ;
#26 = ORIENTED_EDGE ( 'NONE', *, *, #47, .F. ) ;
#27 = ADVANCED_FACE ( 'NONE', ( #4 ), #168, .T. ) ;
#28 = CALENDAR_DATE ( 2020, 24, 12 ) ;
#29 = APPLICATION_PROTOCOL_DEFINITION ( 'international standard', 'config_control_design', 1994, #87 ) ;
#30 = EDGE_CURVE ( 'NONE', #155, #103, #73, .T. ) ;
#31 = CIRCLE ( 'NONE', #7, 15.00000000000000000 ) ;
#32 = AXIS2_PLACEMENT_3D ( 'NONE', #134, #172, #70 ) ;
#33 = CIRCLE ( 'NONE', #111, 15.00000000000000000 ) ;
#34 = DIRECTION ( 'NONE',  ( -1.000000000000000000, -0.000000000000000000, -0.000000000000000000 ) ) ;
#35 = DIRECTION ( 'NONE',  ( 0.000000000000000000, 0.000000000000000000, 1.000000000000000000 ) ) ;
#36 = CC_DESIGN_PERSON_AND_ORGANIZATION_ASSIGNMENT ( #148, #56, ( #89 ) ) ;
#37 = DIRECTION ( 'NONE',  ( -1.000000000000000000, -0.000000000000000000, -0.000000000000000000 ) ) ;
#38 = CARTESIAN_POINT ( 'NONE',  ( -1.614212418857619014, 0.000000000000000000, 0.000000000000000000 ) ) ;
#39 = DESIGN_CONTEXT ( 'detailed design', #58, 'design' ) ;
#40 = CARTESIAN_POINT ( 'NONE',  ( -3.000000000000000000, 0.000000000000000000, 0.000000000000000000 ) ) ;
#41 = APPROVAL_STATUS ( 'not_yet_approved' ) ;
#42 = DATE_AND_TIME ( #11, #85 ) ;
#43 = PRODUCT_RELATED_PRODUCT_CATEGORY ( 'detail', '', ( #89 ) ) ;
#44 = CC_DESIGN_APPROVAL ( #149, ( #16 ) ) ;
#45 = ADVANCED_FACE ( 'NONE', ( #49 ), #171, .T. ) ;
#46 = LOCAL_TIME ( 9, 37, 5.000000000000000000, #10 ) ;
#47 = EDGE_CURVE ( 'NONE', #142, #139, #98, .T. ) ;
#48 = CARTESIAN_POINT ( 'NONE',  ( 3.000000000000000000, 0.000000000000000000, 0.000000000000000000 ) ) ;
#49 = FACE_OUTER_BOUND ( 'NONE', #22, .T. ) ;
#50 = ADVANCED_BREP_SHAPE_REPRESENTATION ( 'QB-CTZHWP-25.4-894-M', ( #17, #32 ), #124 ) ;
#51 = DIRECTION ( 'NONE',  ( 0.000000000000000000, 0.000000000000000000, 1.000000000000000000 ) ) ;
#52 = UNCERTAINTY_MEASURE_WITH_UNIT (LENGTH_MEASURE( 1.000000000000000082E-05 ), #125, 'distance_accuracy_value', 'NONE');
#53 = DIRECTION ( 'NONE',  ( 0.000000000000000000, 0.000000000000000000, 1.000000000000000000 ) ) ;
#54 =( NAMED_UNIT ( * ) PLANE_ANGLE_UNIT ( ) SI_UNIT ( $, .RADIAN. ) );
#55 = AXIS2_PLACEMENT_3D ( 'NONE', #95, #133, #145 ) ;
#56 = PERSON_AND_ORGANIZATION_ROLE ( 'design_owner' ) ;
#57 = APPROVAL_DATE_TIME ( #86, #20 ) ;
#58 = APPLICATION_CONTEXT ( 'configuration controlled 3d designs of mechanical parts and assemblies' ) ;
#59 = EDGE_CURVE ( 'NONE', #103, #139, #92, .T. ) ;
#60 = ORIENTED_EDGE ( 'NONE', *, *, #82, .T. ) ;
#61 = LOCAL_TIME ( 9, 37, 5.000000000000000000, #69 ) ;
#62 = CARTESIAN_POINT ( 'NONE',  ( -3.000000000000000000, 1.836970198721029589E-15, -15.00000000000000000 ) ) ;
#63 = PLANE ( 'NONE',  #99 ) ;
#64 = APPROVAL_ROLE ( '' ) ;
#65 = DIRECTION ( 'NONE',  ( -1.000000000000000000, -0.000000000000000000, -0.000000000000000000 ) ) ;
#66 = AXIS2_PLACEMENT_3D ( 'NONE', #23, #76, #130 ) ;
#67 = PERSON_AND_ORGANIZATION_ROLE ( 'creator' ) ;
#68 = CALENDAR_DATE ( 2020, 24, 12 ) ;
#69 = COORDINATED_UNIVERSAL_TIME_OFFSET ( 8, 0, .AHEAD. ) ;
#70 = DIRECTION ( 'NONE',  ( 1.000000000000000000, 0.000000000000000000, 0.000000000000000000 ) ) ;
#71 = LOCAL_TIME ( 9, 37, 5.000000000000000000, #162 ) ;
#72 = VECTOR ( 'NONE', #34, 1000.000000000000000 ) ;
#73 = CIRCLE ( 'NONE', #129, 15.00000000000000000 ) ;
#74 = CC_DESIGN_PERSON_AND_ORGANIZATION_ASSIGNMENT ( #9, #108, ( #141 ) ) ;
#75 = DIRECTION ( 'NONE',  ( -1.000000000000000000, -0.000000000000000000, -0.000000000000000000 ) ) ;
#76 = DIRECTION ( 'NONE',  ( -1.000000000000000000, 0.000000000000000000, -0.000000000000000000 ) ) ;
#77 = ORIENTED_EDGE ( 'NONE', *, *, #59, .T. ) ;
#78 = PLANE ( 'NONE',  #66 ) ;
#79 = CARTESIAN_POINT ( 'NONE',  ( -1.614212418857619014, 1.836970198721029589E-15, -15.00000000000000000 ) ) ;
#80 = APPROVAL_ROLE ( '' ) ;
#81 = PERSON_AND_ORGANIZATION ( #150, #165 ) ;
#82 = EDGE_CURVE ( 'NONE', #155, #142, #128, .T. ) ;
#83 = DATE_AND_TIME ( #28, #71 ) ;
#84 = AXIS2_PLACEMENT_3D ( 'NONE', #38, #152, #157 ) ;
#85 = LOCAL_TIME ( 9, 37, 5.000000000000000000, #158 ) ;
#86 = DATE_AND_TIME ( #12, #118 ) ;
#87 = APPLICATION_CONTEXT ( 'configuration controlled 3d designs of mechanical parts and assemblies' ) ;
#88 = CC_DESIGN_PERSON_AND_ORGANIZATION_ASSIGNMENT ( #97, #174, ( #114 ) ) ;
#89 = PRODUCT ( 'QB-CTZHWP-25.4-894-M', 'QB-CTZHWP-25.4-894-M', '', ( #159 ) ) ;
#90 = FACE_OUTER_BOUND ( 'NONE', #169, .T. ) ;
#91 = ORIENTED_EDGE ( 'NONE', *, *, #30, .T. ) ;
#92 = LINE ( 'NONE', #79, #116 ) ;
#93 = ORIENTED_EDGE ( 'NONE', *, *, #30, .F. ) ;
#94 = SECURITY_CLASSIFICATION_LEVEL ( 'unclassified' ) ;
#95 = CARTESIAN_POINT ( 'NONE',  ( -1.614212418857619014, 0.000000000000000000, 0.000000000000000000 ) ) ;
#96 = CC_DESIGN_APPROVAL ( #20, ( #114 ) ) ;
#97 = PERSON_AND_ORGANIZATION ( #150, #165 ) ;
#98 = CIRCLE ( 'NONE', #19, 15.00000000000000000 ) ;
#99 = AXIS2_PLACEMENT_3D ( 'NONE', #3, #143, #24 ) ;
#100 = APPROVAL ( #136, 'UNSPECIFIED' ) ;
#101 = CARTESIAN_POINT ( 'NONE',  ( -1.614212418857619014, 0.000000000000000000, 15.00000000000000000 ) ) ;
#102 = DIRECTION ( 'NONE',  ( -1.000000000000000000, -0.000000000000000000, -0.000000000000000000 ) ) ;
#103 = VERTEX_POINT ( 'NONE', #25 ) ;
#104 = CC_DESIGN_PERSON_AND_ORGANIZATION_ASSIGNMENT ( #135, #67, ( #141 ) ) ;
#105 = ORIENTED_EDGE ( 'NONE', *, *, #82, .F. ) ;
#106 = ORIENTED_EDGE ( 'NONE', *, *, #47, .T. ) ;
#107 = ADVANCED_FACE ( 'NONE', ( #90 ), #78, .F. ) ;
#108 = PERSON_AND_ORGANIZATION_ROLE ( 'design_supplier' ) ;
#109 = APPROVAL_ROLE ( '' ) ;
#110 = COORDINATED_UNIVERSAL_TIME_OFFSET ( 8, 0, .AHEAD. ) ;
#111 = AXIS2_PLACEMENT_3D ( 'NONE', #6, #65, #53 ) ;
#112 = DIRECTION ( 'NONE',  ( -1.000000000000000000, -0.000000000000000000, -0.000000000000000000 ) ) ;
#113 = CARTESIAN_POINT ( 'NONE',  ( 3.000000000000000000, 0.000000000000000000, 0.000000000000000000 ) ) ;
#114 = PRODUCT_DEFINITION ( 'UNKNOWN', '', #141, #39 ) ;
#115 = EDGE_LOOP ( 'NONE', ( #91, #77, #26, #105 ) ) ;
#116 = VECTOR ( 'NONE', #75, 1000.000000000000000 ) ;
#117 = DIRECTION ( 'NONE',  ( 0.000000000000000000, 0.000000000000000000, 1.000000000000000000 ) ) ;
#118 = LOCAL_TIME ( 9, 37, 5.000000000000000000, #110 ) ;
#119 = SHAPE_DEFINITION_REPRESENTATION ( #151, #50 ) ;
#120 = ORIENTED_EDGE ( 'NONE', *, *, #160, .F. ) ;
#121 = DATE_TIME_ROLE ( 'creation_date' ) ;
#122 = APPROVAL_DATE_TIME ( #42, #149 ) ;
#123 = APPLICATION_PROTOCOL_DEFINITION ( 'international standard', 'config_control_design', 1994, #58 ) ;
#124 =( GEOMETRIC_REPRESENTATION_CONTEXT ( 3 ) GLOBAL_UNCERTAINTY_ASSIGNED_CONTEXT ( ( #52 ) ) GLOBAL_UNIT_ASSIGNED_CONTEXT ( ( #125, #54, #163 ) ) REPRESENTATION_CONTEXT ( 'NONE', 'WORKASPACE' ) );
#125 =( LENGTH_UNIT ( ) NAMED_UNIT ( * ) SI_UNIT ( .MILLI., .METRE. ) );
#126 = CC_DESIGN_APPROVAL ( #100, ( #141 ) ) ;
#127 = CLOSED_SHELL ( 'NONE', ( #27, #107, #45, #18 ) ) ;
#128 = LINE ( 'NONE', #101, #72 ) ;
#129 = AXIS2_PLACEMENT_3D ( 'NONE', #48, #112, #51 ) ;
#130 = DIRECTION ( 'NONE',  ( -0.000000000000000000, 0.000000000000000000, 1.000000000000000000 ) ) ;
#131 = PERSON_AND_ORGANIZATION ( #150, #165 ) ;
#132 = CARTESIAN_POINT ( 'NONE',  ( 3.000000000000000000, 0.000000000000000000, 15.00000000000000000 ) ) ;
#133 = DIRECTION ( 'NONE',  ( -1.000000000000000000, -0.000000000000000000, -0.000000000000000000 ) ) ;
#134 = CARTESIAN_POINT ( 'NONE',  ( 0.000000000000000000, 0.000000000000000000, 0.000000000000000000 ) ) ;
#135 = PERSON_AND_ORGANIZATION ( #150, #165 ) ;
#136 = APPROVAL_STATUS ( 'not_yet_approved' ) ;
#137 = APPROVAL_DATE_TIME ( #83, #100 ) ;
#138 = APPROVAL_PERSON_ORGANIZATION ( #175, #20, #80 ) ;
#139 = VERTEX_POINT ( 'NONE', #62 ) ;
#140 = EDGE_CURVE ( 'NONE', #103, #155, #31, .T. ) ;
#141 = PRODUCT_DEFINITION_FORMATION_WITH_SPECIFIED_SOURCE ( 'ANY', '', #89, .NOT_KNOWN. ) ;
#142 = VERTEX_POINT ( 'NONE', #153 ) ;
#143 = DIRECTION ( 'NONE',  ( 1.000000000000000000, 0.000000000000000000, 0.000000000000000000 ) ) ;
#144 = APPROVAL_STATUS ( 'not_yet_approved' ) ;
#145 = DIRECTION ( 'NONE',  ( 0.000000000000000000, 0.000000000000000000, 1.000000000000000000 ) ) ;
#146 = CC_DESIGN_PERSON_AND_ORGANIZATION_ASSIGNMENT ( #131, #156, ( #16 ) ) ;
#147 = DATE_AND_TIME ( #173, #61 ) ;
#148 = PERSON_AND_ORGANIZATION ( #150, #165 ) ;
#149 = APPROVAL ( #144, 'UNSPECIFIED' ) ;
#150 = PERSON ( 'UNSPECIFIED', 'UNSPECIFIED', 'UNSPECIFIED', ('UNSPECIFIED'), ('UNSPECIFIED'), ('UNSPECIFIED') ) ;
#151 = PRODUCT_DEFINITION_SHAPE ( 'NONE', 'NONE',  #114 ) ;
#152 = DIRECTION ( 'NONE',  ( -1.000000000000000000, -0.000000000000000000, -0.000000000000000000 ) ) ;
#153 = CARTESIAN_POINT ( 'NONE',  ( -3.000000000000000000, 0.000000000000000000, 15.00000000000000000 ) ) ;
#154 = APPROVAL_PERSON_ORGANIZATION ( #5, #149, #64 ) ;
#155 = VERTEX_POINT ( 'NONE', #132 ) ;
#156 = PERSON_AND_ORGANIZATION_ROLE ( 'classification_officer' ) ;
#157 = DIRECTION ( 'NONE',  ( 0.000000000000000000, 0.000000000000000000, 1.000000000000000000 ) ) ;
#158 = COORDINATED_UNIVERSAL_TIME_OFFSET ( 8, 0, .AHEAD. ) ;
#159 = MECHANICAL_CONTEXT ( 'NONE', #87, 'mechanical' ) ;
#160 = EDGE_CURVE ( 'NONE', #139, #142, #33, .T. ) ;
#161 = DATE_TIME_ROLE ( 'classification_date' ) ;
#162 = COORDINATED_UNIVERSAL_TIME_OFFSET ( 8, 0, .AHEAD. ) ;
#163 =( NAMED_UNIT ( * ) SI_UNIT ( $, .STERADIAN. ) SOLID_ANGLE_UNIT ( ) );
#164 = CC_DESIGN_DATE_AND_TIME_ASSIGNMENT ( #14, #121, ( #114 ) ) ;
#165 = ORGANIZATION ( 'UNSPECIFIED', 'UNSPECIFIED', '' ) ;
#166 = EDGE_LOOP ( 'NONE', ( #106, #8 ) ) ;
#167 = ORIENTED_EDGE ( 'NONE', *, *, #59, .F. ) ;
#168 = CYLINDRICAL_SURFACE ( 'NONE', #84, 15.00000000000000000 ) ;
#169 = EDGE_LOOP ( 'NONE', ( #93, #2 ) ) ;
#170 = ORIENTED_EDGE ( 'NONE', *, *, #140, .T. ) ;
#171 = CYLINDRICAL_SURFACE ( 'NONE', #55, 15.00000000000000000 ) ;
#172 = DIRECTION ( 'NONE',  ( 0.000000000000000000, 0.000000000000000000, 1.000000000000000000 ) ) ;
#173 = CALENDAR_DATE ( 2020, 24, 12 ) ;
#174 = PERSON_AND_ORGANIZATION_ROLE ( 'creator' ) ;
#175 = PERSON_AND_ORGANIZATION ( #150, #165 ) ;
ENDSEC;
END-ISO-10303-21;
